歌手头像-迪克牛仔

原來你什麼都不要

1 2 3 4 5
x

音乐人: 迪克牛仔

供谱者:finshman

   INTRO :
   ------------------------------------------------
   -8-8h9----------13-15-16-15/16-15-15-16-16------
   ------10----------------------------------15-15-
   --------9-10------------------------------------
   ------------------------------------------------
   ------------------------------------------------

   ------------13/15---15h16-15/16-------------18/20-18--18-18/20--
   ---16--16----------------------18-18-18-16----------20----------
   -15--15--15-----------------------------------------------------
   ----------------------------------------------------------------
   ----------------------------------------------------------------
   ----------------------------------------------------------------

   -------18/20------------------------------------
   -18-16------18-16-16-18-18-20-----12-13-158--8-
   -----------------------------17-----------------
   ------------------------------------------------
   ------------------------------------------------
   ------------------------------------------------

         Eb       G7
   我不要你的呵護 你的玫瑰
     Cm          Gm
   只要你好好久久愛我一遍
   Ab           Gm
   就算虛榮也好 貪心也好
   Fm            Bb
   哪個女人對愛不自私 不奢望
     Eb           G7
   我不要你的承諾 不要你的永遠
     Cm          Gm
   只要你真真切切愛我一遍
   Ab           Gm
   就算虛榮也好 貪心也好
   Fm           Bb        Eb
   最怕你把沉默 當做對我的回答
       Ab         Bb        Eb
   原來你........ 什麼都不想要

   --------------------------------------------------11/13---------
   -----------------------------------------11/13---------16-------
   -10/12-10/12-10---10/12-108-----8/10---------15----------15-15-
   ---------------13-----------10-------13-------------------------
   ----------------------------------------------------------------
   ----------------------------------------------------------------

   -----------13/15-----16/18--16-16--------16/18------------------
   ------16--------18-16-------------18-16--------12-13-15/8--8----
   -12/15--15------------------------------------------------------
   ----------------------------------------------------------------
   ----------------------------------------------------------------
   ----------------------------------------------------------------

          Eb            Cm
   我知道這樣不好 也知道你的愛只能那麼少
          Ab              Bb
   我只有不停的要 要到你想逃
         Eb                 Cm
   淚溼的枕頭曬乾就好 眼淚在你的心裏只是無理取鬧
          Ab                Bb
   以爲在你身後 是我一輩子的驕傲
        Ab     Bb        Eb
   原來你......什麼都不想要

         Eb       G7
   我不要你的呵護 你的玫瑰
     Cm          Gm
   只要你好好久久愛我一遍
   Ab           Gm
   就算虛榮也好 貪心也好
   Fm            Bb
   哪個女人對愛不自私 不奢望
     Eb           G7
   我不要你的承諾 不要你的永遠
     Cm          Gm
   只要你真真切切愛我一遍
   Ab           Gm
   就算虛榮也好 貪心也好
   Fm           Bb        Eb
   最怕你把沉默 當做對我的回答
       Ab         Bb        Eb
   原來你........ 什麼都不想要
添加到谱单
X

添加到谱单

《 原來你什麼都不要 -- 迪克牛仔 》加入
◎ 选择已有谱单 创建新的

公开 (默认不公开,欢迎创建有意思的"公开谱单")

创建取消

推荐语(选填)

X

请先登录chord4


忘记密码