歌手头像-安七炫

面具

1 2 3 4 5
x

音乐人: 安七炫

供谱者:mix

 Am
/--x---/
/---x--/
/----x-/
/-x----/
/------/
/------/

Am         Dm          G
 聲音突然哽咽也說不出心意
 心已經被撕碎散在空氣裏飛
           C           F
 淚水慢慢堆積失去行走能力
 像花朵已枯萎無法再次收回
    (Am)   Dm7      Dm
 視線裏圈住已走遠的你
 從沒有讓你感覺到快樂
 E               E7             
 無力挽留我的呼喊已經淹沒在結局裏
 原諒我心裏瘋狂的執着

注:括號裏的Am可以忽略。。。放多一個只爲了整齊(=.=!)

-#Bridge#-

E          Am          Dm
 不要回頭看我不要戀戀不捨
           G           C
 跑着離開我吧以後好好過吧
   Dm       G7
 眼前你越來越遠
    E            E7
 騙自己讓你更遠一點

##Chorus##
           Am          Dm
 這麼遲鈍的我可能有點懦弱
           G           C
 讓你選擇逃脫也許這樣沒錯
           F           Dm 
 忘記所有經過寧願在痛苦中受折磨
 E               E7
 要把回憶慢慢的遺落


---2nd Time---

Am         Dm          G
 請照顧好自己現在說對不起
           C           F
 曾經有過甜蜜爲何還要離去
   (Am)   Dm7      Dm
 離開前請結束我的生命
 E               E7             
 失去了你一天也不能繼續生存下去

Am            Dm
 你知道現在我已不能退
     G
 走到無法挽回快要崩潰
 C
 你卻還能從容面對
  Dm            G7
 怎麼會是我哪裏不對
   E             E7
 你爲什麼一定要離去 

(接chorus)

##Repeat##

/---10-10-8-10-11------------/---8-8-6-8-10---------/---6-6-4-6-8---4-6-4-8--/
/-8---------------8-11-13-10-/-6------------6-10-8--/-4-----------------0-8--/
/----------------------------/----------------------/---------------0--------/
/----------------------------/----------------------/------------------------/
/----------------------------/----------------------/------------------------/
/----------------------------/----------------------/------------------------/
(接bridge)
(接chorus)x2

——Ending——

/-4-13-13-13-11-11-11-9-11-8-/-11-9-13---------/-4-9-9-13-13-13-11-11-9----13-/-4-6-/
/-4-13-13-13-11-11-11-9-11-8-/---------9-13-11-/---9-9-13-13-13-11-11-9----13-/-----/
/--------------------------0-/-----------------/------------------------------/-----/
/----------------------------/-----------------/------------------------------/-----/
/----------------------------/-----------------/------------------------------/-----/
/----------------------------/-----------------/------------------------------/-----/


添加到谱单
X

添加到谱单

《 面具 -- 安七炫 》加入
◎ 选择已有谱单 创建新的

公开 (默认不公开,欢迎创建有意思的"公开谱单")

创建取消

推荐语(选填)

X

请先登录chord4


忘记密码