歌手头像-陳藝鵬

老鼠不再愛大米 (自彈版)

1 2 3 4 5
x

音乐人: 陳藝鵬

供谱者:mix

 C               G              Am             Em
e|--------------|--------------|--------------|--------------|
B|--------1-----|--------0-----|--------1-----|--------0-----|
G|-----------0--|-----------0--|-----------2--|-----------0--|
D|-----2--------|-----0--------|-----2--------|-----2--------|
A|--3-----------|--------------|--0-----------|--2-----------|
E|--------------|--3-----------|--------------|--------------|

   你離開之後我要自己
 F               Em             Dm7            G
e|--------------|--------------|--------------|--------------|
B|--------1-----|--------0-----|--------1-----|--------------|
G|-----2-----2--|-----------0--|-----2-----2--|-----------0--|
D|--3-----------|-----0--------|--0-----------|--------0-----|
A|--------------|--------------|--------------|-----2--------|
E|--------------|--0-----------|--------------|--3-----------|
放開手不回頭                    窗外的雲不停留

C   G    Am   Em
雨季快來到夢被吹着走
F     Em               Dm7    G 
我的愛你不懂          愛情就象個黑洞

C   G    Am   Em
痛過之後要學會照顧自己
F     Em              Dm7    G
過去的忘記了         不再爲你費心機

C   G    Am   Em
昏暗的路燈顯得很孤寂
F     Em              Dm7    G
不要緊沒關係       我要好好活下去 

C   G    Am   Em
該忘記的忘記都當成回憶
 F               Em             Dm7            G
e|--------------|--------------|--------------|-------------0-|
B|--------1-----|--------0-----|--------1-----|-----------0---|
G|-----2-----2--|-----------0--|-----2-----2--|--------0------|
D|--3-----------|-----0--------|--0-----------|-----0---------|
A|--------------|--------------|--------------|---------------|
E|--------------|--0-----------|--------------|--3------------|
說好了不哭泣                    滑落淚水慢慢滴

 C   G    Am   Em
有那麼一天我已經失憶
F                Em             Dm7            C
e|--------------|--------------|-------1------|---------0----|
B|--------1-----|--------0-----|----------1---|--------1-----|
G|-----2-----2--|-----------0--|-----2--------|------0-------|
D|--3-----------|-----0--------|--0-----------|----2---------|
A|--------------|--------------|--------------|--3-----------|
E|--------------|--0-----------|--------------|--------------|
就像老鼠忘了自己                曾經愛大米


吉他譜 http://www.jitapu.com
我們歡迎您轉載曲譜,但請保留我們的地址!
添加到谱单
X

添加到谱单

《 老鼠不再愛大米 (自彈版) -- 陳藝鵬 》加入
◎ 选择已有谱单 创建新的

公开 (默认不公开,欢迎创建有意思的"公开谱单")

创建取消

推荐语(选填)

X

请先登录chord4


忘记密码