歌手头像-戴佩妮

1 2 3 4 5
x

音乐人: 戴佩妮

供谱者:mix


E------------- ------------ --------- ----------- ---------- ------------
B------3------ -------3---- -----3--- ------3---- -----3---- ------3-----
G----0---0---- -----0---0-- ---0---0- ----0---0-- ---0---0-- ----0---3---
D------------- ------------ --------- ----------- ---------- ------------
A--3---------- ------------ -3------- ----------- -3-------- ------------
E------------- -3---------- --------- --3-------- ---------- -3----------

E----------- -----0--------- 
B------1---- -------3------- 
G----0--0--- ---2----------- 
D----------- -0------------- 
A--0-------- --------------- 
E----------- --------------- 


C
漫漫的路
G
冰冷的風
C
黎明之中
G
昨日的夢
C
你是否呼喚
G
我聽着
Am                 D
是誰說距離產生最真摯的美
C
多一些時間
G
多一些愛
C             G
一切都將被現實遺忘
C             G
別停止幻想別阻止夢
Am            D
春風會吹走冬季遺留下的沙
C
在一天
G
我發現
C           G
原來我一直欺騙自己
C
是衝動
G
是無奈
 Am               D
還是無法掩飾內心的失敗
C
再見
G
失落
C          G
我們已經相處得太久
C         G
你明明知道我已厭倦了
Am        D
我再次對你說
C
多一些時間
G
多一些愛
C                G
一切都將被現實塗改
C             G
別停止幻想別阻止夢
Am              D
春風會吹走冬季遺留下的沙



添加到谱单
X

添加到谱单

《 路 -- 戴佩妮 》加入
◎ 选择已有谱单 创建新的

公开 (默认不公开,欢迎创建有意思的"公开谱单")

创建取消

推荐语(选填)

X

请先登录chord4


忘记密码