歌手头像-周杰倫

浪漫手機

1 2 3 4 5
x

音乐人: 周杰倫

供谱者:mix
浪漫手機

INTRO:
 Bb        BbM7     Eb          Ebm
|6--6----8/5-5--5------------------------|
|-----------------6/8--8----4-6/7--7---6-|
|----------------------------------------|
|----------------------------------------|
|----------------------------------------|
|----------------------------------------|

 Bb        BbM7     Eb          F
|6--6----8/5-5--5------------------------|
|-----------------6/8--8----4--4/6-------|
|----------------------------------------|
|----------------------------------------|
|----------------------------------------|
|----------------------------------------|

    Bb            BbM7      EbM7
輕輕放 我就是卸不下對妳的喜歡
    Ebm           Bb
原來愛會慢慢增加重量
      BbM7          EbM7
想關上這城市所有的燈光
      Ebm         Gm
黑暗中專心聞妳的髮香
 
         Dm          Eb     Bb 
這夜晚 讓暗戀很有畫面感 回想
     Eb           Bb
與妳約會過的地方 都捨不得刪
Cm             F
  在腦海媕x存 欣 賞
*
        Bb           BbM7
妳微笑瀏覽 手機堛漁		
添加到谱单
X

添加到谱单

《 浪漫手機 -- 周杰倫 》加入
◎ 选择已有谱单 创建新的

公开 (默认不公开,欢迎创建有意思的"公开谱单")

创建取消

推荐语(选填)

X

请先登录chord4


忘记密码