歌手头像-周杰倫

晴天單音指彈版

1 2 3 4 5
x

音乐人: 周杰倫

供谱者:crony
晴天單音指彈版
歌手:周杰倫
編配者:heryunk
--------------------------------------
原調: 1=G  選調: 1=G  

start_of_tab
|------------------|
------------------|
------------------|
------------------|

|-5-5---0-2--|-5-5---0-2-0---|-5-5---0-2--|-2-0-3-2-0-3-2-|
|----3-3-----|----3-3--------|----3-3-----|---------------|
|------------|-------------2-|------------|---------------|
|------------|------------0--|------------|--------------0|

|------2-3-2-0-0-|-2-2-2-2-0-2-0---|------2-3-2-0-0-|
|-0-3-3----------|---------------2-|-0-2-3----------|
|----------------|-----------------|----------------|
|-------------0--|--------------0--|-------------0--|

|-2-2-2-2-0-2-0---|---------------|---------------|
|---------------2-|-3-3-3-3-2-3-3-|-3-3-3-3-2-3-3-|
|-----------------|---------------|---------------|
|--------------0--|---------------|---------------|

|---------------|------5-5-5-|-5-5-5-5-5-5-|-5-5-5-5-3-2-0-|
|-3-3-3-3-2-3-3-|-3-3-3------|-------------|----------------|
|---------------|------------|-------------|----------------|
|---------------|------------|-------------|----------------|

|-0----------5-3-2---|--------0--|------5-3-2-0-|
|---2-3-0-2-3------3-|-3-3-3-3-3-|-0-2-3--------|
|--------------------|-----------|--------------|
|--0--------------0--|-----------|-----------0--|

|-2-0-3-2-|--5-9-10-9-----|--7-7-|-7-5-5-|-5-3-2-0-2-3-2-|
|---------|-3--------10---|------|-------|---------------|
|---------|-------------7-|-7----|-------|---------------|
|---------|---------------|------|-------|---------------|

|----6--|-5-7-8-12-9-10-10-|10-10-5-5-7-5-3-0-2-|
|-7-9-7-|------------------|--------------------|
|-------|------------------|--------------------|
|-------|------------------|--------------------|

|-3-4-7-7-9-9-|-2-0-3-2-|--5-9-10-9-----|--7-7-|-7-5-5|-5-3-2-0-2-3-2-|
|------3------|---------|-3--------10---|------|-------|---------------|
|-------------|---------|-------------7-|-7----|-------|---------------|
|-------------|---------|---------------|------|-------|---------------|

|----6--|-6-9-9-12-9-10-10-|10-10-5-5-7-5-3-0-2-|--0-2-0-2-|---|
|-7-9-7-|------------------|--------------------|-3--------|-3-|
|-------|------------------|--------------------|----------|---|
|-------|------------------|--------------------|----------|---|
end_of_tab

      

添加到譜單
X

添加到譜單

《 晴天單音指彈版 -- 周杰倫 》加入
◎ 選擇已有譜單 創建新的

公開 (默認不公開,歡迎創建有意思的"公開譜單")

創建取消

推薦語(選填)

X

請先登錄chord4


忘記密碼

我来回应