歌手头像-理想混蛋

屬於你

1 2 3 4 5
x

音乐人: 理想混蛋

供谱者:reecho
屬於你 
理想混蛋
編配者:tman160429
---------------------------------------------------
Key=C

[Intro]
C D G Em 
 
[Verse 1]
G G  Dsus2  Dsus2     C
每次遇見你 恰好的天氣
C    D       G
彷彿 早已 有了默契
G G Dsus2 Dsus2  C C C
隨太陽升起 每朵思念情緒
  
[Pre-Chorus 1]
    C    D   G     D
帶着漂浮的自己 幻想牽着你
  C    D
在每個夏季
  
[Chorus 1]
C      G
我會是你 特別佳賓
D        Em
設計每一場 驚喜
C      G    D
緊緊擁抱 你每段回憶
 
e|-----2-3-x----------------------|
B|-----3-3-3-1-0------------------|
G|-2-0-2-2-2-----0-2-4-4\5-4-2-0--|
D|-----0-0-0----------------------|
A|--------------------------------|
E|--------------------------------|
 
只要別懷疑 默數着 每次 你的呼吸
C   G   D     D7  G D7  G
我和甜蜜 就會慢慢靠近你 靠近你
 
[Verse 2]
G G Dsus2 Dsus2  C
每次道別離 偷偷凝望你
C    D       G
再見 用最短的距離
G G Dsus2 Dsus2 C C C
在我的星球 你是萬有引力
  
[Pre-chorus 2]
    C    D   G     D
無論再小心仔細 卻已經留下
  C    D
心動的痕跡 
 
[Chorus 2]
C       G
我會是你 祕密武器
D        Em
趕走每一片 烏雲
C       G
保護着你 只要你願意
 
e|-----2-3-x----------------------|
B|-----3-3-3-1-0------------------|
G|-2-0-2-2-2-----0-2-4-4\5-4-2-0--|
D|-----0-0-0----------------------|
A|--------------------------------|
E|--------------------------------|
 
勇敢說愛我 如果你也是這樣相信
C   G   D     D7  G D7  G
那顆星星 就會永遠屬於你 屬於你
D     D7  G
我也永遠屬於你
  
[Bridge]
C  G    D     Em
不要忘記 被愛也有意義
  
[Outro]
C  G    D     Em
當你想起 每一次相聚
C  G    D     Em
當你懷念 我小小心意
 
e|-----2-3-x----------------------|
B|-----3-3-3-1-0------------------|
G|-2-0-2-2-2-----0-2-4-4\5-7-2-0--|
D|-----0-0-0----------------------|
A|--------------------------------|
E|--------------------------------|
 
屬於我 你每個晴天和每個壞天氣
  
C   G   G     D7  G
我的微笑 也會永遠屬於你
D7  G D7  G
屬於你 屬於你
 
************************************
 
| x   Dead note
| \   Slide down
 
************************************
添加到譜單
X

添加到譜單

《 屬於你 -- 理想混蛋 》加入
◎ 選擇已有譜單 創建新的

公開 (默認不公開,歡迎創建有意思的"公開譜單")

創建取消

推薦語(選填)

X

請先登錄chord4


忘記密碼

我来回应