歌手头像-告五人

紅(LOVE)

1 2 3 4 5
x

音乐人: 告五人

供谱者:Dschueh
1=A
Capo=2

Verse

e|--------------3--2---------------3--2-------
B|----------3-------------------3-------------
G|-------0-------------------0----------------
D|----0-------------------0-------------------
A|--------------------------------------------
E|-3-------------------3----------------------

  -------------<3>--<2>--------------<3>--<2>---|
  ----------<3>-------------------<3>-----------|
  -------<0>-------------------<0>--------------|
  ----0----------------------0------------------|
  -3----------------------3---------------------|
  ----------------------------------------------|

   G            C
我只爲你 點亮眼睛
          G
雖然雙手緊握還是空氣
       C
卻因爲你 深信不疑
       G         C
喃喃自語 在黑夜裏
          G
你不明白你細微的呼吸
       C
都奪走我 血液裏的氧氣

Em    D
愛會在凌晨惦起
C     G
跳躍了時空差距
Em    D
爲何要束縛自己
C     G
讓彼此不能呼吸
Em    D
我想要和你一起
C     G
數了滿天的星星
Em    D
最後躺在我懷裏
C     G
唱着那最美的旋律

solo
E|-3-3-3-3--2-2-5-5--3-3-3-3--2-2-7-7--3-3-3-3--5-5-3-3--3-3-3-3--2-3-----|

  G              C
喃喃自語 在黑夜裏
          G
你不明白你細微的呼吸
        C
都奪走我 血液裏的氧氣

Em    D
愛會在凌晨惦起
C     G
跳躍了時空差距
Em    D
爲何要束縛自己
C     G
讓彼此不能呼吸
Em    D
我想要和你一起
C     G
數了滿天的星星
Em    D
最後躺在我懷裏
C     G
唱着那最美的旋律

Em D C G Em D C G

Em     D
我想要和你一起
  C               G  D
站在地平線上遼望天地
Em      D
朝最遠的地方看去
  C                   G
陽光灑落在 我朝你奔跑的心裏

(G) D C G Em D C G

G             C
愛會在凌晨惦起

fine.
		
添加到谱单
X

添加到谱单

《 紅(LOVE) -- 告五人 》加入
◎ 选择已有谱单 创建新的

公开 (默认不公开,欢迎创建有意思的"公开谱单")

创建取消

推荐语(选填)

X

请先登录chord4


忘记密码

我来回应